Maggotface band members only
 
HomeCalendarFAQSearchMemberlistUsergroupsRegisterLog in

Share | 
 

 Untitled Tab (Glitched but this is it)

View previous topic View next topic Go down 
AuthorMessage
Will
Admin
avatar

Posts : 46
Join date : 2009-12-02
Age : 22

PostSubject: Untitled Tab (Glitched but this is it)   Thu Dec 03, 2009 8:40 am

UNTITLED TAB
As recorded by Maggotface
(From the 2009 Album EVERYTHING)






3/2
Gtr I
PM--| PM--| PM PM--| PM--| PM
|----------------------------------------------------|
|----------------------------------------------------|
|----------------------------------------------------|
|-------2h3p2-------------------2h3p2----------------|
|-------2h3p2-------5-0-6-------2h3p2-------5-0-6----|
|-0-0-0-2h3p2-0-0-0-------0-0-0-2h3p2-0-0-0----------|


PM--| PM--| PM PM--| PM--| PM
|--------------------------------------------------------|
|--------------------------------------------------------|
|--------------------------------------------------------|
|-------2h3p2-------------------2h3p2--------------------|
|-------2h3p2-------5-0-6-------2h3p2-------5-0-6--------|
|-0-0-0-2h3p2-0-0-0-------0-0-0-2h3p2-0-0-0-------[3]----|


PM| PM| PM| PM PM| PM| PM| PM| PM| PM PM| PM|
|----------------------------------------------------------------------|
|----------------------------------------------------------------------|
|----------------------------------------------------------------------|
|-----2-----3-----6---5-----------------2-----3-----6---5--------------|
|-----2-----3-----6---5-----------------2-----3-----6---5--------------|
|-0-0-2-0-0-3-0-0-6-0-5-0-0-0-0-0-0-0-0-2-0-0-3-0-0-6-0-5-0-0-0-0-0-0--|


PM| PM| PM| PM PM| PM| PM| PM| PM| PM
|----------------------------------------------------------------|
|----------------------------------------------------------------|
|----------------------------------------------------------------|
|-----2-----3-----6---5-----------------2-----3-----6---5--------|
|-----2-----3-----6---5-----------------2-----3-----6---5--------|
|-0-0-2-0-0-3-0-0-6-0-5-0-0-0-0-0-0-0-0-2-0-0-3-0-0-6-0-5-[3]----|


|-------------------------|-------------------------|------------------|
|-------------------------|-------------------------|------------------|
|-------------------------|-------------------------|------------------|
|-----5-----5---7-----7---|---7---8-----8-----8---7-|-----7-----7---5--|
|-------------------------|-------------------------|------------------|
|-5-5---5-5---5---5-5---5-|-5---5---5-5---5-5---5---|-5-5---5-5---5----|


|-------------------------|-------------------------|------------------|
|-------------------------|-------------------------|------------------|
|-------------------------|-------------------------|------------------|
|-----5-----5---7-----7---|---7---8-----8-----8---7-|-----7-----7---5--|
|-------------------------|-------------------------|------------------|
|-5-5---5-5---5---5-5---5-|-5---5---5-5---5-5---5---|-5-5---5-5---5----|



Tablature Legend
----------------
h - hammer-on
p - pull-off
b - bend
pb - pre-bend
r - bend release (if no number after the r, then release immediately)
/\ - slide into or out of (from/to "nowhere")
s - legato slide
S - shift slide
<n> - natural harmonic
[n] - artificial harmonic
n(n) - tapped harmonic
~ - vibrato
tr - trill
T - tap
TP - trem. picking
PM - palm muting
\n/ - tremolo bar dip; n = amount to dip
\n - tremolo bar down
n/ - tremolo bar up
/n\ - tremolo bar inverted dip
= - hold bend; also acts as connecting device for hammers/pulls
<> - volume swell (louder/softer)
x - on rhythm slash represents muted slash
o - on rhythm slash represents single note slash

Misc Legend
-----------
| - bar
|| - double bar
||o - repeat start
o|| - repeat end
*| - double bar (ending)
: - bar (freetime)
$ - Segno
& - Coda
Tempo markers - <E/E./Q/Q./H/H.> = BPM(8/16=s8/s16), where s8 = swing 8ths, s16 = swing 16ths
Back to top Go down
View user profile http://maggotface.roflforum.net
kayleigh houlker
Admin
avatar

Posts : 9
Join date : 2009-12-02
Age : 22
Location : cranston RI

PostSubject: Re: Untitled Tab (Glitched but this is it)   Thu Dec 03, 2009 9:08 pm

can we name the song something like "zombies in resale stores" because I am tired of all of our songs being "untitled"
Back to top Go down
View user profile
Adam
Admin
avatar

Posts : 20
Join date : 2009-12-02
Age : 22
Location : M-TOWN BITCH

PostSubject: Re: Untitled Tab (Glitched but this is it)   Fri Dec 04, 2009 10:39 am

I actually love that name now hahha it should be labeld that I second
Back to top Go down
View user profile
Will
Admin
avatar

Posts : 46
Join date : 2009-12-02
Age : 22

PostSubject: Re: Untitled Tab (Glitched but this is it)   Fri Dec 04, 2009 11:04 am

well the title is supposed to have something to do with the lyrics which we don't have yet...
Back to top Go down
View user profile http://maggotface.roflforum.net
Adam
Admin
avatar

Posts : 20
Join date : 2009-12-02
Age : 22
Location : M-TOWN BITCH

PostSubject: Re: Untitled Tab (Glitched but this is it)   Sun Dec 06, 2009 5:51 am

then we'll write about zombies
Back to top Go down
View user profile
Taydon K
Admin


Posts : 16
Join date : 2009-12-03
Age : 21

PostSubject: Re: Untitled Tab (Glitched but this is it)   Tue Dec 08, 2009 7:47 am

i think "i like cheese doodles could be one too"
Back to top Go down
View user profile
blahgirl13
Admin
avatar

Posts : 9
Join date : 2009-12-02
Age : 23
Location : Rhode Island

PostSubject: Re: Untitled Tab (Glitched but this is it)   Mon Dec 14, 2009 2:07 am

LMAO XD i have those on my iTunes~~~~ XDDDDDDDDD
Back to top Go down
View user profile
Sponsored content




PostSubject: Re: Untitled Tab (Glitched but this is it)   

Back to top Go down
 
Untitled Tab (Glitched but this is it)
View previous topic View next topic Back to top 
Page 1 of 1
 Similar topics
-
» Subject Untitled - The Journey (EP)

Permissions in this forum:You cannot reply to topics in this forum
Maggotface Private Members Forum :: Band Stuff :: Guitar Tab-
Jump to: